News:

contact: webmaster [at] shattered [dash] room [dot] net
write me a message if you can't log in, need to recover your account, or register a new account; also if the email address you used here might now be invalid!

Main Menu

Does ANYONE have some more Arena Tabs??

Started by joost, Thu, 2006-01-12, 12:58:59

Previous topic - Next topic

joost

Hi there,

Im looking for some Arena Tabs for guitar.
Who has some?
And if possible, could you guys (the band) post some by yourself?

Thanks!

Joost, Netherlands

marcello

id love some more, baisically everything he said  ^
What will I be, When Winter comes again, and were wrapped up in furs, and life has begun again

joost

Im looking for some help, who can write me a tab with the chords used in Waiting for the flood?

joost

Today I was trying to write this tab.
Please help me to improve it.

Wilford Jr.

First you must understand that I do not play guitar very well.  The only reason that I am posting this answer at all is that it has been some time since you posted the tab, and I thought you would like some response.

When I play this tab I do not play it with the correct rhythm so to me it doesn't sound quite right.  But it is much more likely that it is my guitar playing that is off and not your tab.  I am glad, however, that someone is posting any tabs of Arena songs because it makes practicing more fun if you can attempt to play some song you really like.  I would love to see more guitar tabs and perhaps some keyboard music.  I appreciate any help that the gifted and experienced musicians on this site can provide to us beginners.  Thank you!
No longer feeling anything
Fading fast
Nothing lasts
Beyond the waking hour

joost

Note that I am a beginner too...
I bet this piece of the tab i posted is completly wrong.
So I would like someone who does know how to play it, to help improving this tab or maybe even post some others on their own!

joost


marcello

http://www.ultimate-guitar.com/tabs/t/tina_arena/the_eyes_of_lara_moon_guitar_pro.htm

This is alright if you've got pro tab installed (i have the free version)

I do know though that the three chords featured most the way through "the eyes of lara moon" are A Dm Eb and play them in the tune of the song. Works a treat   ;)
What will I be, When Winter comes again, and were wrapped up in furs, and life has begun again


PH

Quote from: johninblack on Mon, 2006-05-15, 16:51:37
Have a look at this.

John Mitchell's tabs for Sirens, Solomon and Isolation.

Ooooooh Great!! Thanks Johnny! ;)
I'm gonna practise as soon as I feel the need to get of my computer...

joost

Ur the man John!
Write some more, make a book and sell it to us!  ;)

FirstPrice

Do any of you have the chords for 'Mea Culpa'?

I usually play the guitar, but now I felt like playing the piano.. Beautiful song, by the way..  :D
-Håvard

Wilford Jr.

Does anyone have any music for that little piano intro to "A CLown's Tale"?  The part right at the beinning of the song.  I like it very much and would like to try and play it but I am not very good at playing so I will never be able to figure out the part myself.  Thanks!
No longer feeling anything
Fading fast
Nothing lasts
Beyond the waking hour

PH


joost


joost

I think Ive got a small piece of "Waiting for the Floods" intro part.
-----------3------------3----------3------------7--10--7--8--7-------------
--------5-----------5-----------5------5-------------------------------------
-----5----------5------------5------------------------------------------------
--5----------------------------------------------------------------------------
-------------------------------------------------------------------------------
-------------------------------------------------------------------------------

Draco chimera

#16
Quote from: joost on Wed, 2006-04-05, 11:34:01
Today I was trying to write this tab.
Please help me to improve it.
I made a version of Jericho before having a look on yours. I play it  like this :
-----0-------------|0---------|----------------|-0-----0--2--0------------
--------3----------|---3------|------------3---|-----0------------3--------
-----------2-------|------2---|---------2------|---------------------2------
-------------------|-----------|-----0----------|----------------------------     (three times)
--0-------------4-|-----------|--2-------------|----------------------------
-------------------|-----------|----------------|-----------------------------
Is it correct ? It is a bit different than yours, joost. Thank you for the solo, it is exactly like that I think ! Well done ! ;)
Let your conscience decide !

Draco chimera

Does somebody have some tab for I Spy ?

It's really a great song, and I would love to play it.
Let your conscience decide !

The Butterfly Man

#18
Quote from: Draco chimera on Wed, 2008-05-07, 14:43:12
Does somebody have some tab for I Spy ?

It's really a great song, and I would love to play it.

Here are the chords.....

Please note that I just did this really quick, so I'm sure there are a few mistakes here and there. However, it's playable and it sounds okay. Not great but decent...:)

Anyway, see the attachement and have fun!

Tom
There will be white clouds beyond the hills...

Draco chimera

Thank you ! (Now I will play it all the time  :D)
I know a freeware which can read gp3 and gp4 : TuxGuitar. You can download it here : http://www.tuxguitar.com.ar/download.html
Let your conscience decide !

The Butterfly Man

Quote from: Draco chimera on Thu, 2008-05-08, 10:53:47
Thank you ! (Now I will play it all the time  :D)
I know a freeware which can read gp3 and gp4 : TuxGuitar. You can download it here : http://www.tuxguitar.com.ar/download.html

Thanks, that's cool! :) Glad I could help you with the song though...

Tom
There will be white clouds beyond the hills...

Draco chimera

I'm trying to write the beggining of Isolation.
---0----2--3--7--8--7--5--2--2--3--5--8--8--7--5--7
0--------------------------------------------------
---------------------------------------------------
---------------------------------------------------
---------------------------------------------------
---------------------------------------------------

0--2--3--5--2--3--5--8--8--7--5--7
----------------------------------------
----------------------------------------
----------------------------------------
----------------------------------------
----------------------------------------

It's a theme, you'll find the same melody at the beggining of Only Child (Crying for Help IV).
Let your conscience decide !

Draco chimera

I wrote the intro of (Don't Forget To) Breathe.
Here's an acoustic version.
I have tried to post the version from the album for GuitarPro and TuxGuitar, but it doesn't work, because of the format.
How can I do ?
Let your conscience decide !

Draco chimera

Here is the intro of Empire Of Thousand Days.
Witch Hunt begins with : e/e/g and so on.
I'll try to post the intro of Salamander on www.ultimate-guitar.net in .gp5
Let your conscience decide !

The Butterfly Man

#24
Quote from: Draco chimera on Thu, 2009-03-26, 17:08:58
Witch Hunt begins with : e/e/g and so on.


Did you know that Witch Hunt is played in a dropped C tuning (CGCFAd)? The intro and verses are actually very easy to play this way:

d-----------------------------
A-----------------------------
F-----------------------------
C--0--0--3--0--0--3--0----
G--0--0--3--0--0--3--0----
C--0--0--3--0--0--3--0----      And so on...

Maybe I'll post the rest of the song later (minus the solo, cause although I can play it, it's a hell to transcribe!).

Tom
There will be white clouds beyond the hills...